ISO-10303-21;
HEADER;
FILE_DESCRIPTION (( 'STEP AP203' ),
    '1' );
FILE_NAME ('N-SF1-BPBSC-20-420-680.STEP',
    '2021-01-05T02:14:32',
    ( '' ),
    ( '' ),
    'SwSTEP 2.0',
    'SolidWorks 2020',
    '' );
FILE_SCHEMA (( 'CONFIG_CONTROL_DESIGN' ));
ENDSEC;

DATA;
#1 = ORIENTED_EDGE ( 'NONE', *, *, #133, .T. ) ;
#2 = CARTESIAN_POINT ( 'NONE',  ( -9.999999999999998224, -10.00000000000000000, 10.00000000000000000 ) ) ;
#3 = VECTOR ( 'NONE', #308, 1000.000000000000000 ) ;
#4 = APPLICATION_PROTOCOL_DEFINITION ( 'international standard', 'config_control_design', 1994, #69 ) ;
#5 = ORIENTED_EDGE ( 'NONE', *, *, #274, .F. ) ;
#6 = ORIENTED_EDGE ( 'NONE', *, *, #30, .T. ) ;
#7 = ORIENTED_EDGE ( 'NONE', *, *, #30, .F. ) ;
#8 = ORIENTED_EDGE ( 'NONE', *, *, #266, .T. ) ;
#9 = AXIS2_PLACEMENT_3D ( 'NONE', #316, #16, #213 ) ;
#10 = FACE_OUTER_BOUND ( 'NONE', #247, .T. ) ;
#11 = DATE_AND_TIME ( #177, #99 ) ;
#12 = PLANE ( 'NONE',  #297 ) ;
#13 = APPROVAL ( #106, 'UNSPECIFIED' ) ;
#14 = CARTESIAN_POINT ( 'NONE',  ( 10.00000000000000178, 9.999999999999998224, -10.00000000000000000 ) ) ;
#15 = VECTOR ( 'NONE', #300, 1000.000000000000000 ) ;
#16 = DIRECTION ( 'NONE',  ( 0.000000000000000000, -0.000000000000000000, 1.000000000000000000 ) ) ;
#17 = LINE ( 'NONE', #135, #88 ) ;
#18 = DIRECTION ( 'NONE',  ( -0.000000000000000000, 0.000000000000000000, 1.000000000000000000 ) ) ;
#19 = CC_DESIGN_PERSON_AND_ORGANIZATION_ASSIGNMENT ( #211, #311, ( #238 ) ) ;
#20 = FACE_OUTER_BOUND ( 'NONE', #277, .T. ) ;
#21 = EDGE_CURVE ( 'NONE', #149, #202, #125, .T. ) ;
#22 = CARTESIAN_POINT ( 'NONE',  ( -10.00000000000000178, -9.999999999999996447, 10.00000000000000000 ) ) ;
#23 = DIRECTION ( 'NONE',  ( -0.000000000000000000, -0.000000000000000000, -1.000000000000000000 ) ) ;
#24 = VECTOR ( 'NONE', #241, 1000.000000000000000 ) ;
#25 = PRODUCT_RELATED_PRODUCT_CATEGORY ( 'detail', '', ( #186 ) ) ;
#26 = ORIENTED_EDGE ( 'NONE', *, *, #248, .F. ) ;
#27 = EDGE_LOOP ( 'NONE', ( #299, #256, #34 ) ) ;
#28 = VECTOR ( 'NONE', #267, 1000.000000000000000 ) ;
#29 = ORIENTED_EDGE ( 'NONE', *, *, #133, .F. ) ;
#30 = EDGE_CURVE ( 'NONE', #182, #52, #249, .T. ) ;
#31 = ORIENTED_EDGE ( 'NONE', *, *, #21, .F. ) ;
#32 = DIRECTION ( 'NONE',  ( 1.000000000000000000, -2.220446049250313081E-16, 0.000000000000000000 ) ) ;
#33 = CC_DESIGN_DATE_AND_TIME_ASSIGNMENT ( #36, #276, ( #43 ) ) ;
#34 = ORIENTED_EDGE ( 'NONE', *, *, #285, .T. ) ;
#35 = CARTESIAN_POINT ( 'NONE',  ( -9.999999999999998224, 10.00000000000000355, -10.00000000000000000 ) ) ;
#36 = DATE_AND_TIME ( #78, #96 ) ;
#37 = PLANE ( 'NONE',  #168 ) ;
#38 = LINE ( 'NONE', #41, #3 ) ;
#39 = FACE_OUTER_BOUND ( 'NONE', #153, .T. ) ;
#40 = AXIS2_PLACEMENT_3D ( 'NONE', #2, #172, #184 ) ;
#41 = CARTESIAN_POINT ( 'NONE',  ( 10.00000000000000178, 9.999999999999998224, 10.00000000000000000 ) ) ;
#42 = CARTESIAN_POINT ( 'NONE',  ( 10.00000000000000178, 9.999999999999998224, 10.00000000000000000 ) ) ;
#43 = PRODUCT_DEFINITION ( 'UNKNOWN', '', #238, #218 ) ;
#44 = LINE ( 'NONE', #141, #24 ) ;
#45 = PLANE ( 'NONE',  #222 ) ;
#46 = PERSON_AND_ORGANIZATION_ROLE ( 'design_owner' ) ;
#47 = CARTESIAN_POINT ( 'NONE',  ( -10.00000000000000178, -9.999999999999996447, 10.00000000000000000 ) ) ;
#48 = ORIENTED_EDGE ( 'NONE', *, *, #171, .F. ) ;
#49 = ADVANCED_BREP_SHAPE_REPRESENTATION ( 'N-SF1-BPBSC-20-420-680', ( #185, #55, #282 ), #114 ) ;
#50 = LINE ( 'NONE', #132, #51 ) ;
#51 = VECTOR ( 'NONE', #232, 1000.000000000000000 ) ;
#52 = VERTEX_POINT ( 'NONE', #253 ) ;
#53 = EDGE_CURVE ( 'NONE', #179, #175, #181, .T. ) ;
#54 = DIRECTION ( 'NONE',  ( 1.000000000000000000, -2.220446049250313081E-16, 0.000000000000000000 ) ) ;
#55 = MANIFOLD_SOLID_BREP ( '¾µÏ', #89 ) ;
#56 = LINE ( 'NONE', #187, #198 ) ;
#57 = LINE ( 'NONE', #309, #252 ) ;
#58 = CARTESIAN_POINT ( 'NONE',  ( -10.00000000000000178, -9.999999999999996447, 10.00000000000000000 ) ) ;
#59 = LINE ( 'NONE', #62, #152 ) ;
#60 = DATE_TIME_ROLE ( 'classification_date' ) ;
#61 = PERSON ( 'UNSPECIFIED', 'UNSPECIFIED', 'UNSPECIFIED', ('UNSPECIFIED'), ('UNSPECIFIED'), ('UNSPECIFIED') ) ;
#62 = CARTESIAN_POINT ( 'NONE',  ( 10.00000000000000000, 10.00000000000000000, -10.00000000000000000 ) ) ;
#63 = CLOSED_SHELL ( 'NONE', ( #121, #67, #154, #271, #293 ) ) ;
#64 = CARTESIAN_POINT ( 'NONE',  ( -9.999999999999998224, 10.00000000000000355, 10.00000000000000000 ) ) ;
#65 = DIRECTION ( 'NONE',  ( 0.7071067811865475727, 0.7071067811865474617, 0.000000000000000000 ) ) ;
#66 = LINE ( 'NONE', #224, #195 ) ;
#67 = ADVANCED_FACE ( 'NONE', ( #228 ), #206, .F. ) ;
#68 = AXIS2_PLACEMENT_3D ( 'NONE', #94, #145, #166 ) ;
#69 = APPLICATION_CONTEXT ( 'configuration controlled 3d designs of mechanical parts and assemblies' ) ;
#70 = CARTESIAN_POINT ( 'NONE',  ( 0.000000000000000000, 0.000000000000000000, 0.000000000000000000 ) ) ;
#71 = CARTESIAN_POINT ( 'NONE',  ( 10.00000000000000000, 10.00000000000000000, 10.00000000000000000 ) ) ;
#72 = CC_DESIGN_PERSON_AND_ORGANIZATION_ASSIGNMENT ( #86, #189, ( #238 ) ) ;
#73 = VECTOR ( 'NONE', #216, 1000.000000000000000 ) ;
#74 = ORIENTED_EDGE ( 'NONE', *, *, #274, .T. ) ;
#75 = COORDINATED_UNIVERSAL_TIME_OFFSET ( 8, 0, .AHEAD. ) ;
#76 = CARTESIAN_POINT ( 'NONE',  ( 10.00000000000000178, -10.00000000000000000, -10.00000000000000000 ) ) ;
#77 = ORIENTED_EDGE ( 'NONE', *, *, #103, .F. ) ;
#78 = CALENDAR_DATE ( 2021, 5, 1 ) ;
#79 = DIRECTION ( 'NONE',  ( 2.220446049250313081E-16, 1.000000000000000000, 0.000000000000000000 ) ) ;
#80 = UNCERTAINTY_MEASURE_WITH_UNIT (LENGTH_MEASURE( 1.000000000000000082E-05 ), #117, 'distance_accuracy_value', 'NONE');
#81 = VERTEX_POINT ( 'NONE', #76 ) ;
#82 = PLANE ( 'NONE',  #9 ) ;
#83 = EDGE_LOOP ( 'NONE', ( #109, #305, #108, #111 ) ) ;
#84 = CARTESIAN_POINT ( 'NONE',  ( 0.000000000000000000, 0.000000000000000000, 10.00000000000000000 ) ) ;
#85 = ORIENTED_EDGE ( 'NONE', *, *, #262, .F. ) ;
#86 = PERSON_AND_ORGANIZATION ( #61, #234 ) ;
#87 = CARTESIAN_POINT ( 'NONE',  ( 10.00000000000000178, 9.999999999999998224, 10.00000000000000000 ) ) ;
#88 = VECTOR ( 'NONE', #194, 1000.000000000000000 ) ;
#89 = CLOSED_SHELL ( 'NONE', ( #317, #97, #191, #245, #169 ) ) ;
#90 = COORDINATED_UNIVERSAL_TIME_OFFSET ( 8, 0, .AHEAD. ) ;
#91 = CALENDAR_DATE ( 2021, 5, 1 ) ;
#92 = LINE ( 'NONE', #314, #268 ) ;
#93 = APPROVAL ( #197, 'UNSPECIFIED' ) ;
#94 = CARTESIAN_POINT ( 'NONE',  ( 0.000000000000000000, 0.000000000000000000, 10.00000000000000000 ) ) ;
#95 = APPROVAL_ROLE ( '' ) ;
#96 = LOCAL_TIME ( 10, 14, 32.00000000000000000, #104 ) ;
#97 = ADVANCED_FACE ( 'NONE', ( #280 ), #283, .F. ) ;
#98 = LINE ( 'NONE', #142, #301 ) ;
#99 = LOCAL_TIME ( 10, 14, 32.00000000000000000, #75 ) ;
#100 = CC_DESIGN_APPROVAL ( #93, ( #138 ) ) ;
#101 = FACE_OUTER_BOUND ( 'NONE', #27, .T. ) ;
#102 = EDGE_CURVE ( 'NONE', #303, #81, #50, .T. ) ;
#103 = EDGE_CURVE ( 'NONE', #200, #149, #148, .T. ) ;
#104 = COORDINATED_UNIVERSAL_TIME_OFFSET ( 8, 0, .AHEAD. ) ;
#105 = ORIENTED_EDGE ( 'NONE', *, *, #120, .T. ) ;
#106 = APPROVAL_STATUS ( 'not_yet_approved' ) ;
#107 = VECTOR ( 'NONE', #32, 1000.000000000000000 ) ;
#108 = ORIENTED_EDGE ( 'NONE', *, *, #285, .F. ) ;
#109 = ORIENTED_EDGE ( 'NONE', *, *, #220, .T. ) ;
#110 = CARTESIAN_POINT ( 'NONE',  ( 10.00000000000000178, 9.999999999999998224, -10.00000000000000000 ) ) ;
#111 = ORIENTED_EDGE ( 'NONE', *, *, #102, .T. ) ;
#112 = APPROVAL_DATE_TIME ( #11, #13 ) ;
#113 = CARTESIAN_POINT ( 'NONE',  ( -10.00000000000000178, -9.999999999999996447, -10.00000000000000000 ) ) ;
#114 =( GEOMETRIC_REPRESENTATION_CONTEXT ( 3 ) GLOBAL_UNCERTAINTY_ASSIGNED_CONTEXT ( ( #80 ) ) GLOBAL_UNIT_ASSIGNED_CONTEXT ( ( #117, #298, #272 ) ) REPRESENTATION_CONTEXT ( 'NONE', 'WORKASPACE' ) );
#115 = PERSON_AND_ORGANIZATION_ROLE ( 'classification_officer' ) ;
#116 = CARTESIAN_POINT ( 'NONE',  ( -9.999999999999998224, -10.00000000000000000, -10.00000000000000000 ) ) ;
#117 =( LENGTH_UNIT ( ) NAMED_UNIT ( * ) SI_UNIT ( .MILLI., .METRE. ) );
#118 = APPROVAL_PERSON_ORGANIZATION ( #227, #13, #201 ) ;
#119 = LINE ( 'NONE', #42, #318 ) ;
#120 = EDGE_CURVE ( 'NONE', #122, #179, #92, .T. ) ;
#121 = ADVANCED_FACE ( 'NONE', ( #39 ), #37, .F. ) ;
#122 = VERTEX_POINT ( 'NONE', #140 ) ;
#123 = DATE_AND_TIME ( #304, #229 ) ;
#124 = PRODUCT_DEFINITION_SHAPE ( 'NONE', 'NONE',  #43 ) ;
#125 = LINE ( 'NONE', #226, #127 ) ;
#126 = EDGE_CURVE ( 'NONE', #310, #149, #59, .T. ) ;
#127 = VECTOR ( 'NONE', #79, 1000.000000000000000 ) ;
#128 = MECHANICAL_CONTEXT ( 'NONE', #315, 'mechanical' ) ;
#129 = CC_DESIGN_SECURITY_CLASSIFICATION ( #138, ( #238 ) ) ;
#130 = ORIENTED_EDGE ( 'NONE', *, *, #126, .T. ) ;
#131 = ORIENTED_EDGE ( 'NONE', *, *, #171, .T. ) ;
#132 = CARTESIAN_POINT ( 'NONE',  ( 10.00000000000000178, -10.00000000000000000, 10.00000000000000000 ) ) ;
#133 = EDGE_CURVE ( 'NONE', #175, #81, #17, .T. ) ;
#134 = DIRECTION ( 'NONE',  ( 1.000000000000000000, -2.220446049250313081E-16, 0.000000000000000000 ) ) ;
#135 = CARTESIAN_POINT ( 'NONE',  ( -9.999999999999998224, -10.00000000000000000, -10.00000000000000000 ) ) ;
#136 = LINE ( 'NONE', #14, #313 ) ;
#137 = FACE_OUTER_BOUND ( 'NONE', #83, .T. ) ;
#138 = SECURITY_CLASSIFICATION ( '', '', #260 ) ;
#139 = SHAPE_DEFINITION_REPRESENTATION ( #124, #49 ) ;
#140 = CARTESIAN_POINT ( 'NONE',  ( 10.00000000000000178, 9.999999999999998224, 10.00000000000000000 ) ) ;
#141 = CARTESIAN_POINT ( 'NONE',  ( 10.00000000000000000, 10.00000000000000000, 10.00000000000000000 ) ) ;
#142 = CARTESIAN_POINT ( 'NONE',  ( -9.999999999999998224, -10.00000000000000000, 10.00000000000000000 ) ) ;
#143 = AXIS2_PLACEMENT_3D ( 'NONE', #263, #208, #290 ) ;
#144 = CARTESIAN_POINT ( 'NONE',  ( 10.00000000000000000, 10.00000000000000000, -10.00000000000000000 ) ) ;
#145 = DIRECTION ( 'NONE',  ( -0.000000000000000000, 0.000000000000000000, 1.000000000000000000 ) ) ;
#146 = APPROVAL ( #180, 'UNSPECIFIED' ) ;
#147 = APPROVAL_ROLE ( '' ) ;
#148 = LINE ( 'NONE', #219, #73 ) ;
#149 = VERTEX_POINT ( 'NONE', #113 ) ;
#150 = CC_DESIGN_PERSON_AND_ORGANIZATION_ASSIGNMENT ( #164, #115, ( #138 ) ) ;
#151 = ORIENTED_EDGE ( 'NONE', *, *, #103, .T. ) ;
#152 = VECTOR ( 'NONE', #240, 1000.000000000000000 ) ;
#153 = EDGE_LOOP ( 'NONE', ( #302, #230, #250, #105 ) ) ;
#154 = ADVANCED_FACE ( 'NONE', ( #137 ), #12, .F. ) ;
#155 = ORIENTED_EDGE ( 'NONE', *, *, #21, .T. ) ;
#156 = EDGE_LOOP ( 'NONE', ( #130, #155, #205 ) ) ;
#157 = DIRECTION ( 'NONE',  ( -0.000000000000000000, 1.000000000000000000, -0.000000000000000000 ) ) ;
#158 = DIRECTION ( 'NONE',  ( 2.220446049250313081E-16, 1.000000000000000000, 0.000000000000000000 ) ) ;
#159 = LOCAL_TIME ( 10, 14, 32.00000000000000000, #90 ) ;
#160 = ORIENTED_EDGE ( 'NONE', *, *, #321, .F. ) ;
#161 = DIRECTION ( 'NONE',  ( -0.000000000000000000, 0.000000000000000000, -1.000000000000000000 ) ) ;
#162 = COORDINATED_UNIVERSAL_TIME_OFFSET ( 8, 0, .AHEAD. ) ;
#163 = CARTESIAN_POINT ( 'NONE',  ( -9.999999999999998224, -10.00000000000000000, 10.00000000000000000 ) ) ;
#164 = PERSON_AND_ORGANIZATION ( #61, #234 ) ;
#165 = FACE_OUTER_BOUND ( 'NONE', #231, .T. ) ;
#166 = DIRECTION ( 'NONE',  ( 1.000000000000000000, 0.000000000000000000, 0.000000000000000000 ) ) ;
#167 = DIRECTION ( 'NONE',  ( 2.220446049250313081E-16, 1.000000000000000000, 0.000000000000000000 ) ) ;
#168 = AXIS2_PLACEMENT_3D ( 'NONE', #236, #192, #292 ) ;
#169 = ADVANCED_FACE ( 'NONE', ( #235 ), #82, .F. ) ;
#170 = DIRECTION ( 'NONE',  ( 0.000000000000000000, 0.000000000000000000, 1.000000000000000000 ) ) ;
#171 = EDGE_CURVE ( 'NONE', #52, #310, #56, .T. ) ;
#172 = DIRECTION ( 'NONE',  ( 0.000000000000000000, 1.000000000000000000, 0.000000000000000000 ) ) ;
#173 = AXIS2_PLACEMENT_3D ( 'NONE', #84, #287, #158 ) ;
#174 = PERSON_AND_ORGANIZATION_ROLE ( 'creator' ) ;
#175 = VERTEX_POINT ( 'NONE', #116 ) ;
#176 = CC_DESIGN_PERSON_AND_ORGANIZATION_ASSIGNMENT ( #289, #174, ( #43 ) ) ;
#177 = CALENDAR_DATE ( 2021, 5, 1 ) ;
#178 = DIRECTION ( 'NONE',  ( 0.000000000000000000, 0.000000000000000000, 1.000000000000000000 ) ) ;
#179 = VERTEX_POINT ( 'NONE', #261 ) ;
#180 = APPROVAL_STATUS ( 'not_yet_approved' ) ;
#181 = LINE ( 'NONE', #110, #15 ) ;
#182 = VERTEX_POINT ( 'NONE', #312 ) ;
#183 = LOCAL_TIME ( 10, 14, 32.00000000000000000, #162 ) ;
#184 = DIRECTION ( 'NONE',  ( 0.000000000000000000, -0.000000000000000000, 1.000000000000000000 ) ) ;
#185 = MANIFOLD_SOLID_BREP ( 'Í¹Ì¨-À', #63 ) ;
#186 = PRODUCT ( 'N-SF1-BPBSC-20-420-680', 'N-SF1-BPBSC-20-420-680', '', ( #128 ) ) ;
#187 = CARTESIAN_POINT ( 'NONE',  ( 10.00000000000000000, 10.00000000000000000, 10.00000000000000000 ) ) ;
#188 = VERTEX_POINT ( 'NONE', #163 ) ;
#189 = PERSON_AND_ORGANIZATION_ROLE ( 'design_supplier' ) ;
#190 = AXIS2_PLACEMENT_3D ( 'NONE', #319, #270, #65 ) ;
#191 = ADVANCED_FACE ( 'NONE', ( #257 ), #286, .F. ) ;
#192 = DIRECTION ( 'NONE',  ( 0.7071067811865474617, -0.7071067811865475727, 0.000000000000000000 ) ) ;
#193 = APPROVAL_DATE_TIME ( #223, #93 ) ;
#194 = DIRECTION ( 'NONE',  ( 1.000000000000000000, 0.000000000000000000, 0.000000000000000000 ) ) ;
#195 = VECTOR ( 'NONE', #23, 1000.000000000000000 ) ;
#196 = PLANE ( 'NONE',  #190 ) ;
#197 = APPROVAL_STATUS ( 'not_yet_approved' ) ;
#198 = VECTOR ( 'NONE', #161, 1000.000000000000000 ) ;
#199 = LINE ( 'NONE', #22, #215 ) ;
#200 = VERTEX_POINT ( 'NONE', #58 ) ;
#201 = APPROVAL_ROLE ( '' ) ;
#202 = VERTEX_POINT ( 'NONE', #35 ) ;
#203 = ORIENTED_EDGE ( 'NONE', *, *, #220, .F. ) ;
#204 = COORDINATED_UNIVERSAL_TIME_OFFSET ( 8, 0, .AHEAD. ) ;
#205 = ORIENTED_EDGE ( 'NONE', *, *, #233, .T. ) ;
#206 = PLANE ( 'NONE',  #40 ) ;
#207 = EDGE_CURVE ( 'NONE', #122, #188, #38, .T. ) ;
#208 = DIRECTION ( 'NONE',  ( -2.220446049250313081E-16, -1.000000000000000000, 0.000000000000000000 ) ) ;
#209 = EDGE_LOOP ( 'NONE', ( #1, #284, #160, #8 ) ) ;
#210 = PLANE ( 'NONE',  #173 ) ;
#211 = PERSON_AND_ORGANIZATION ( #61, #234 ) ;
#212 = CC_DESIGN_PERSON_AND_ORGANIZATION_ASSIGNMENT ( #273, #46, ( #186 ) ) ;
#213 = DIRECTION ( 'NONE',  ( 2.220446049250313081E-16, 1.000000000000000000, 0.000000000000000000 ) ) ;
#214 = DATE_AND_TIME ( #217, #159 ) ;
#215 = VECTOR ( 'NONE', #167, 1000.000000000000000 ) ;
#216 = DIRECTION ( 'NONE',  ( -0.000000000000000000, 0.000000000000000000, -1.000000000000000000 ) ) ;
#217 = CALENDAR_DATE ( 2021, 5, 1 ) ;
#218 = DESIGN_CONTEXT ( 'detailed design', #69, 'design' ) ;
#219 = CARTESIAN_POINT ( 'NONE',  ( -10.00000000000000178, -9.999999999999996447, 10.00000000000000000 ) ) ;
#220 = EDGE_CURVE ( 'NONE', #81, #179, #136, .T. ) ;
#221 = CARTESIAN_POINT ( 'NONE',  ( 10.00000000000000178, -10.00000000000000000, 10.00000000000000000 ) ) ;
#222 = AXIS2_PLACEMENT_3D ( 'NONE', #242, #18, #296 ) ;
#223 = DATE_AND_TIME ( #91, #183 ) ;
#224 = CARTESIAN_POINT ( 'NONE',  ( -9.999999999999998224, -10.00000000000000000, 10.00000000000000000 ) ) ;
#225 = CC_DESIGN_APPROVAL ( #13, ( #238 ) ) ;
#226 = CARTESIAN_POINT ( 'NONE',  ( -10.00000000000000178, -9.999999999999996447, -10.00000000000000000 ) ) ;
#227 = PERSON_AND_ORGANIZATION ( #61, #234 ) ;
#228 = FACE_OUTER_BOUND ( 'NONE', #209, .T. ) ;
#229 = LOCAL_TIME ( 10, 14, 32.00000000000000000, #204 ) ;
#230 = ORIENTED_EDGE ( 'NONE', *, *, #266, .F. ) ;
#231 = EDGE_LOOP ( 'NONE', ( #255, #203, #29 ) ) ;
#232 = DIRECTION ( 'NONE',  ( -0.000000000000000000, -0.000000000000000000, -1.000000000000000000 ) ) ;
#233 = EDGE_CURVE ( 'NONE', #202, #310, #57, .T. ) ;
#234 = ORGANIZATION ( 'UNSPECIFIED', 'UNSPECIFIED', '' ) ;
#235 = FACE_OUTER_BOUND ( 'NONE', #156, .T. ) ;
#236 = CARTESIAN_POINT ( 'NONE',  ( 10.00000000000000178, 9.999999999999998224, 10.00000000000000000 ) ) ;
#237 = DIRECTION ( 'NONE',  ( -1.000000000000000000, 0.000000000000000000, 0.000000000000000000 ) ) ;
#238 = PRODUCT_DEFINITION_FORMATION_WITH_SPECIFIED_SOURCE ( 'ANY', '', #186, .NOT_KNOWN. ) ;
#239 = DIRECTION ( 'NONE',  ( 0.000000000000000000, 0.000000000000000000, 1.000000000000000000 ) ) ;
#240 = DIRECTION ( 'NONE',  ( -0.7071067811865475727, -0.7071067811865474617, 0.000000000000000000 ) ) ;
#241 = DIRECTION ( 'NONE',  ( -0.7071067811865475727, -0.7071067811865474617, 0.000000000000000000 ) ) ;
#242 = CARTESIAN_POINT ( 'NONE',  ( 0.000000000000000000, 0.000000000000000000, -10.00000000000000000 ) ) ;
#243 = DIRECTION ( 'NONE',  ( 1.000000000000000000, 0.000000000000000000, 0.000000000000000000 ) ) ;
#244 = DIRECTION ( 'NONE',  ( -0.000000000000000000, 1.000000000000000000, -0.000000000000000000 ) ) ;
#245 = ADVANCED_FACE ( 'NONE', ( #10 ), #210, .T. ) ;
#246 = APPROVAL_DATE_TIME ( #123, #146 ) ;
#247 = EDGE_LOOP ( 'NONE', ( #5, #7, #26 ) ) ;
#248 = EDGE_CURVE ( 'NONE', #200, #182, #199, .T. ) ;
#249 = LINE ( 'NONE', #71, #107 ) ;
#250 = ORIENTED_EDGE ( 'NONE', *, *, #207, .F. ) ;
#251 = ORIENTED_EDGE ( 'NONE', *, *, #262, .T. ) ;
#252 = VECTOR ( 'NONE', #134, 1000.000000000000000 ) ;
#253 = CARTESIAN_POINT ( 'NONE',  ( 10.00000000000000000, 10.00000000000000000, 10.00000000000000000 ) ) ;
#254 = EDGE_LOOP ( 'NONE', ( #31, #77, #306, #251 ) ) ;
#255 = ORIENTED_EDGE ( 'NONE', *, *, #53, .F. ) ;
#256 = ORIENTED_EDGE ( 'NONE', *, *, #321, .T. ) ;
#257 = FACE_OUTER_BOUND ( 'NONE', #288, .T. ) ;
#258 = APPROVAL_PERSON_ORGANIZATION ( #279, #146, #147 ) ;
#259 = DIRECTION ( 'NONE',  ( -0.000000000000000000, -0.000000000000000000, -1.000000000000000000 ) ) ;
#260 = SECURITY_CLASSIFICATION_LEVEL ( 'unclassified' ) ;
#261 = CARTESIAN_POINT ( 'NONE',  ( 10.00000000000000178, 9.999999999999998224, -10.00000000000000000 ) ) ;
#262 = EDGE_CURVE ( 'NONE', #182, #202, #265, .T. ) ;
#263 = CARTESIAN_POINT ( 'NONE',  ( 10.00000000000000000, 10.00000000000000000, 10.00000000000000000 ) ) ;
#264 = PLANE ( 'NONE',  #68 ) ;
#265 = LINE ( 'NONE', #64, #28 ) ;
#266 = EDGE_CURVE ( 'NONE', #188, #175, #66, .T. ) ;
#267 = DIRECTION ( 'NONE',  ( -0.000000000000000000, 0.000000000000000000, -1.000000000000000000 ) ) ;
#268 = VECTOR ( 'NONE', #259, 1000.000000000000000 ) ;
#269 = CC_DESIGN_APPROVAL ( #146, ( #43 ) ) ;
#270 = DIRECTION ( 'NONE',  ( -0.7071067811865474617, 0.7071067811865475727, 0.000000000000000000 ) ) ;
#271 = ADVANCED_FACE ( 'NONE', ( #101 ), #264, .T. ) ;
#272 =( NAMED_UNIT ( * ) SI_UNIT ( $, .STERADIAN. ) SOLID_ANGLE_UNIT ( ) );
#273 = PERSON_AND_ORGANIZATION ( #61, #234 ) ;
#274 = EDGE_CURVE ( 'NONE', #52, #200, #44, .T. ) ;
#275 = AXIS2_PLACEMENT_3D ( 'NONE', #47, #54, #178 ) ;
#276 = DATE_TIME_ROLE ( 'creation_date' ) ;
#277 = EDGE_LOOP ( 'NONE', ( #307, #48, #74, #151 ) ) ;
#278 = CC_DESIGN_DATE_AND_TIME_ASSIGNMENT ( #214, #60, ( #138 ) ) ;
#279 = PERSON_AND_ORGANIZATION ( #61, #234 ) ;
#280 = FACE_OUTER_BOUND ( 'NONE', #254, .T. ) ;
#281 = ORIENTED_EDGE ( 'NONE', *, *, #233, .F. ) ;
#282 = AXIS2_PLACEMENT_3D ( 'NONE', #70, #170, #294 ) ;
#283 = PLANE ( 'NONE',  #275 ) ;
#284 = ORIENTED_EDGE ( 'NONE', *, *, #102, .F. ) ;
#285 = EDGE_CURVE ( 'NONE', #303, #122, #119, .T. ) ;
#286 = PLANE ( 'NONE',  #143 ) ;
#287 = DIRECTION ( 'NONE',  ( 0.000000000000000000, -0.000000000000000000, 1.000000000000000000 ) ) ;
#288 = EDGE_LOOP ( 'NONE', ( #281, #85, #6, #131 ) ) ;
#289 = PERSON_AND_ORGANIZATION ( #61, #234 ) ;
#290 = DIRECTION ( 'NONE',  ( 0.000000000000000000, 0.000000000000000000, 1.000000000000000000 ) ) ;
#291 = PERSON_AND_ORGANIZATION ( #61, #234 ) ;
#292 = DIRECTION ( 'NONE',  ( 0.7071067811865475727, 0.7071067811865474617, 0.000000000000000000 ) ) ;
#293 = ADVANCED_FACE ( 'NONE', ( #165 ), #45, .F. ) ;
#294 = DIRECTION ( 'NONE',  ( 1.000000000000000000, 0.000000000000000000, 0.000000000000000000 ) ) ;
#295 = APPLICATION_PROTOCOL_DEFINITION ( 'international standard', 'config_control_design', 1994, #315 ) ;
#296 = DIRECTION ( 'NONE',  ( 1.000000000000000000, 0.000000000000000000, 0.000000000000000000 ) ) ;
#297 = AXIS2_PLACEMENT_3D ( 'NONE', #87, #237, #239 ) ;
#298 =( NAMED_UNIT ( * ) PLANE_ANGLE_UNIT ( ) SI_UNIT ( $, .RADIAN. ) );
#299 = ORIENTED_EDGE ( 'NONE', *, *, #207, .T. ) ;
#300 = DIRECTION ( 'NONE',  ( -0.7071067811865475727, -0.7071067811865474617, 0.000000000000000000 ) ) ;
#301 = VECTOR ( 'NONE', #243, 1000.000000000000000 ) ;
#302 = ORIENTED_EDGE ( 'NONE', *, *, #53, .T. ) ;
#303 = VERTEX_POINT ( 'NONE', #221 ) ;
#304 = CALENDAR_DATE ( 2021, 5, 1 ) ;
#305 = ORIENTED_EDGE ( 'NONE', *, *, #120, .F. ) ;
#306 = ORIENTED_EDGE ( 'NONE', *, *, #248, .T. ) ;
#307 = ORIENTED_EDGE ( 'NONE', *, *, #126, .F. ) ;
#308 = DIRECTION ( 'NONE',  ( -0.7071067811865475727, -0.7071067811865474617, 0.000000000000000000 ) ) ;
#309 = CARTESIAN_POINT ( 'NONE',  ( 10.00000000000000000, 10.00000000000000000, -10.00000000000000000 ) ) ;
#310 = VERTEX_POINT ( 'NONE', #144 ) ;
#311 = PERSON_AND_ORGANIZATION_ROLE ( 'creator' ) ;
#312 = CARTESIAN_POINT ( 'NONE',  ( -9.999999999999998224, 10.00000000000000355, 10.00000000000000000 ) ) ;
#313 = VECTOR ( 'NONE', #157, 1000.000000000000000 ) ;
#314 = CARTESIAN_POINT ( 'NONE',  ( 10.00000000000000178, 9.999999999999998224, 10.00000000000000000 ) ) ;
#315 = APPLICATION_CONTEXT ( 'configuration controlled 3d designs of mechanical parts and assemblies' ) ;
#316 = CARTESIAN_POINT ( 'NONE',  ( 0.000000000000000000, 0.000000000000000000, -10.00000000000000000 ) ) ;
#317 = ADVANCED_FACE ( 'NONE', ( #20 ), #196, .F. ) ;
#318 = VECTOR ( 'NONE', #244, 1000.000000000000000 ) ;
#319 = CARTESIAN_POINT ( 'NONE',  ( 10.00000000000000000, 10.00000000000000000, 10.00000000000000000 ) ) ;
#320 = APPROVAL_PERSON_ORGANIZATION ( #291, #93, #95 ) ;
#321 = EDGE_CURVE ( 'NONE', #188, #303, #98, .T. ) ;
ENDSEC;
END-ISO-10303-21;
